Girl

Written by Glenn Danzig
Tab by Tom Mallon



Notation
^ = bend half step
^r = bend full step and release
/\/ = vibrato

Songflow:
Intro
Verse
Chorus
Verse
Chorus
Bridge
Chorus
Bridge
Chorus
INTRO

E |-----------------------------------------------------------------------|
B |-----------------------------------------------------------------------|
G |.------------7---12--------------7---12-----------------5---7---7-----.|
D |.--2----7----7---12----2----7----7---12----2-------2----5---7---5---2-.|
A |---2----7----5---10----2----7----5---10----2-------2----3---5-------2--|
E |---0----5--------------0----5--------------0---3^--0----------------0--|


VERSE

E |-------------------------|-------------------------------------------|
B |-------------------------|-------------------------------------------|
G |.-------5-------7-------.|-------------------------------------------|
D |.--2----5-------7-------.|--2--------2-------------------------------|
A |---2----3---0---5--------|--2--------2-------------------------------|
E |---0-----------------3^--|--0---3^---0-------------------------------|

PRE-CHORUS
PM- - - - - - - - - -|
E |-------------------------------------------|
B |-------------------------------------------|
G |---4--4--4--4--4--4--4--4--4--4--4--4--4---|
D |---4--4--4--4--4--4--4--4--4--4--4--4--4---|
A |---2--2--2--2--2--2--2--2--2--2--2--2--2---|
E |-------------------------------------------|

CHORUS
PM PM
E |---------------------------------------------------------------------|
B |---------------------------------------------------------------------|
G |----------7--12-----9-----9-----------7---12-----------------------|
D |--2---7---7--12-----9-----9-------7---7---12--2---5---2------------|
A |--2---7---5--10-----7-----7-------7---5---10--2---5---2------------|
E |--0---5----------0-----0----------5-----------0---3---0------------|

BRIDGE/SOLO

E |-------------------------------------------------------|
B |-------------------------------------------------------|
G |----------------5----7--------5---7---7^r---5----------|
D |-------------------------------------------------7-----|
A |-------------------------------------------------------|
E |----5---5---5-------------5----------------------------|
/\/
E |-------------------------------------------------------|
B |-------------------------------------------------------|
G |----------------5----7---------------------------------|
D |--------------------------0---7----0--6--5--3--0-------|
A |-------------------------------------------------------|
E |----5---5---5------------------------------------------|

E |-------------------------------------------------------|
B |-------------------------------------------------------|
G |----------------5----7--------5---7---7^r----5---------|
D |--------------------------------------------------7----|
A |-------------------------------------------------------|
E |----5---5---5-------------5----------------------------|

E |-------------------------------------------------------|
B |-------------------------------------------------------|
G |----------------5----7-------??????????????????????----|
D |-----------------------------??????????????????????----|
A |-------------------------------------------------------|
E |----5---5---5------------------------------------------|

E |-------------------------------------------------------|
B |-------------------------------------------------------|
G |----------------7----9--------7---9---9^r----7---------|
D |---------------------------------------------------9---|
A |-------------------------------------------------------|
E |----7---7---7------------7-----------------------------|

E |-------------------------------------------------------|
B |-------------------------------------------------------|
G |----------------7----9-------???????????????????????---|
D |-----------------------------???????????????????????---|
A |-------------------------------------------------------|
E |----7---7---7------------7-----------------------------|